ISO-10303-21;
HEADER;
FILE_DESCRIPTION (( 'STEP AP214' ),
    '1' );
FILE_NAME ('[M-AE-C-008] 12.5mm X 5.0mm CELL.STEP',
    '2023-08-02T12:34:44',
    ( '' ),
    ( '' ),
    'SwSTEP 2.0',
    'SolidWorks 2021',
    '' );
FILE_SCHEMA (( 'AUTOMOTIVE_DESIGN' ));
ENDSEC;

DATA;
#1 = EDGE_CURVE ( 'NONE', #349, #69, #269, .T. ) ;
#2 = FACE_OUTER_BOUND ( 'NONE', #318, .T. ) ;
#3 = UNCERTAINTY_MEASURE_WITH_UNIT (LENGTH_MEASURE( 1.000000000000000082E-05 ), #114, 'distance_accuracy_value', 'NONE');
#4 = AXIS2_PLACEMENT_3D ( 'NONE', #174, #211, #213 ) ;
#5 = AXIS2_PLACEMENT_3D ( 'NONE', #250, #68, #339 ) ;
#6 = APPLICATION_PROTOCOL_DEFINITION ( 'draft international standard', 'automotive_design', 1998, #181 ) ;
#7 = EDGE_CURVE ( 'NONE', #380, #192, #21, .T. ) ;
#8 = EDGE_CURVE ( 'NONE', #103, #197, #109, .T. ) ;
#9 = VERTEX_POINT ( 'NONE', #325 ) ;
#10 = AXIS2_PLACEMENT_3D ( 'NONE', #235, #360, #151 ) ;
#11 = ORIENTED_EDGE ( 'NONE', *, *, #333, .T. ) ;
#12 = PLANE ( 'NONE',  #334 ) ;
#13 = EDGE_CURVE ( 'NONE', #45, #192, #311, .T. ) ;
#14 = ORIENTED_EDGE ( 'NONE', *, *, #7, .F. ) ;
#15 = DIRECTION ( 'NONE',  ( 0.000000000000000000, 0.000000000000000000, 1.000000000000000000 ) ) ;
#16 = VECTOR ( 'NONE', #81, 1000.000000000000000 ) ;
#17 = DIRECTION ( 'NONE',  ( 0.000000000000000000, 1.000000000000000000, 0.000000000000000000 ) ) ;
#18 = ORIENTED_EDGE ( 'NONE', *, *, #183, .T. ) ;
#19 = ADVANCED_FACE ( 'NONE', ( #170 ), #138, .T. ) ;
#20 = FACE_OUTER_BOUND ( 'NONE', #251, .T. ) ;
#21 = LINE ( 'NONE', #142, #275 ) ;
#22 = CIRCLE ( 'NONE', #280, 5.080000000000000071 ) ;
#23 = CARTESIAN_POINT ( 'NONE',  ( 0.000000000000000000, 0.5000000000000000000, 5.329999999999996518 ) ) ;
#24 = SURFACE_SIDE_STYLE ('',( #209 ) ) ;
#25 = CARTESIAN_POINT ( 'NONE',  ( 0.000000000000000000, 5.000000000000000000, 0.000000000000000000 ) ) ;
#26 = CARTESIAN_POINT ( 'NONE',  ( 0.000000000000000000, 0.2499999999999993616, 0.000000000000000000 ) ) ;
#27 = EDGE_CURVE ( 'NONE', #349, #287, #324, .T. ) ;
#28 = VECTOR ( 'NONE', #124, 1000.000000000000000 ) ;
#29 = DIRECTION ( 'NONE',  ( 0.000000000000000000, 0.000000000000000000, 1.000000000000000000 ) ) ;
#30 = ADVANCED_FACE ( 'NONE', ( #227 ), #51, .F. ) ;
#31 = AXIS2_PLACEMENT_3D ( 'NONE', #322, #86, #49 ) ;
#32 = UNCERTAINTY_MEASURE_WITH_UNIT (LENGTH_MEASURE( 1.000000000000000082E-05 ), #375, 'distance_accuracy_value', 'NONE');
#33 =( GEOMETRIC_REPRESENTATION_CONTEXT ( 3 ) GLOBAL_UNCERTAINTY_ASSIGNED_CONTEXT ( ( #338 ) ) GLOBAL_UNIT_ASSIGNED_CONTEXT ( ( #245, #39, #373 ) ) REPRESENTATION_CONTEXT ( 'NONE', 'WORKASPACE' ) );
#34 = DIRECTION ( 'NONE',  ( 0.000000000000000000, 0.000000000000000000, 1.000000000000000000 ) ) ;
#35 = VERTEX_POINT ( 'NONE', #46 ) ;
#36 = COLOUR_RGB ( '',0.6980392156862744724, 0.6980392156862744724, 0.6980392156862744724 ) ;
#37 = MECHANICAL_DESIGN_GEOMETRIC_PRESENTATION_REPRESENTATION (  '', ( #105 ), #312 ) ;
#38 = ORIENTED_EDGE ( 'NONE', *, *, #371, .T. ) ;
#39 =( NAMED_UNIT ( * ) PLANE_ANGLE_UNIT ( ) SI_UNIT ( $, .RADIAN. ) );
#40 = PLANE ( 'NONE',  #108 ) ;
#41 = EDGE_CURVE ( 'NONE', #287, #230, #386, .T. ) ;
#42 = EDGE_LOOP ( 'NONE', ( #370, #315 ) ) ;
#43 = ADVANCED_FACE ( 'NONE', ( #353 ), #79, .T. ) ;
#44 = MANIFOLD_SOLID_BREP ( 'Chamfer1', #98 ) ;
#45 = VERTEX_POINT ( 'NONE', #200 ) ;
#46 = CARTESIAN_POINT ( 'NONE',  ( 0.000000000000000000, 0.000000000000000000, 5.080000000000000071 ) ) ;
#47 = DIRECTION ( 'NONE',  ( 0.000000000000000000, 0.000000000000000000, 1.000000000000000000 ) ) ;
#48 = AXIS2_PLACEMENT_3D ( 'NONE', #25, #80, #202 ) ;
#49 = DIRECTION ( 'NONE',  ( 0.000000000000000000, 0.000000000000000000, 1.000000000000000000 ) ) ;
#50 = EDGE_LOOP ( 'NONE', ( #346, #348 ) ) ;
#51 = CONICAL_SURFACE ( 'NONE', #382, 5.080000000000000071, 0.7853981633974570498 ) ;
#52 = CARTESIAN_POINT ( 'NONE',  ( 0.000000000000000000, 5.000000000000000000, 0.000000000000000000 ) ) ;
#53 = EDGE_CURVE ( 'NONE', #9, #385, #387, .T. ) ;
#54 = DIRECTION ( 'NONE',  ( -0.000000000000000000, 1.000000000000000000, -0.000000000000000000 ) ) ;
#55 = ORIENTED_EDGE ( 'NONE', *, *, #139, .F. ) ;
#56 = DIRECTION ( 'NONE',  ( 8.659560562354978464E-17, 0.7071067811865439090, -0.7071067811865512365 ) ) ;
#57 = LINE ( 'NONE', #336, #28 ) ;
#58 = DIRECTION ( 'NONE',  ( 0.000000000000000000, 1.000000000000000000, 0.000000000000000000 ) ) ;
#59 = CARTESIAN_POINT ( 'NONE',  ( 7.635672792683746979E-16, 5.000000000000000000, 6.235000000000000320 ) ) ;
#60 = CARTESIAN_POINT ( 'NONE',  ( 6.221205739668554322E-16, 0.000000000000000000, -5.080000000000000071 ) ) ;
#61 = SHAPE_DEFINITION_REPRESENTATION ( #254, #212 ) ;
#62 = APPLICATION_PROTOCOL_DEFINITION ( 'draft international standard', 'automotive_design', 1998, #93 ) ;
#63 = CIRCLE ( 'NONE', #290, 5.080000000000000071 ) ;
#64 = ADVANCED_FACE ( 'NONE', ( #75 ), #198, .T. ) ;
#65 = CONICAL_SURFACE ( 'NONE', #5, 5.080000000000000071, 0.7853981633974570498 ) ;
#66 = CARTESIAN_POINT ( 'NONE',  ( 7.635672792683746979E-16, 5.000000000000000000, 6.235000000000000320 ) ) ;
#67 = ORIENTED_EDGE ( 'NONE', *, *, #27, .F. ) ;
#68 = DIRECTION ( 'NONE',  ( 0.000000000000000000, 1.000000000000000000, 0.000000000000000000 ) ) ;
#69 = VERTEX_POINT ( 'NONE', #168 ) ;
#70 = EDGE_LOOP ( 'NONE', ( #255, #87, #126, #362 ) ) ;
#71 = FACE_BOUND ( 'NONE', #42, .T. ) ;
#72 = EDGE_CURVE ( 'NONE', #380, #233, #22, .T. ) ;
#73 = ADVANCED_FACE ( 'NONE', ( #256, #189 ), #40, .T. ) ;
#74 = EDGE_LOOP ( 'NONE', ( #102, #187, #172, #300 ) ) ;
#75 = FACE_OUTER_BOUND ( 'NONE', #76, .T. ) ;
#76 = EDGE_LOOP ( 'NONE', ( #67, #194, #55, #350 ) ) ;
#77 = ORIENTED_EDGE ( 'NONE', *, *, #215, .F. ) ;
#78 = AXIS2_PLACEMENT_3D ( 'NONE', #307, #182, #29 ) ;
#79 = CYLINDRICAL_SURFACE ( 'NONE', #140, 6.235000000000000320 ) ;
#80 = DIRECTION ( 'NONE',  ( 0.000000000000000000, 1.000000000000000000, 0.000000000000000000 ) ) ;
#81 = DIRECTION ( 'NONE',  ( 0.000000000000000000, 0.7071067811865439090, 0.7071067811865512365 ) ) ;
#82 = DIRECTION ( 'NONE',  ( -0.000000000000000000, 1.000000000000000000, -0.000000000000000000 ) ) ;
#83 = ORIENTED_EDGE ( 'NONE', *, *, #305, .F. ) ;
#84 = DIRECTION ( 'NONE',  ( -0.000000000000000000, -1.000000000000000000, -0.000000000000000000 ) ) ;
#85 = LINE ( 'NONE', #210, #190 ) ;
#86 = DIRECTION ( 'NONE',  ( 0.000000000000000000, 1.000000000000000000, 0.000000000000000000 ) ) ;
#87 = ORIENTED_EDGE ( 'NONE', *, *, #218, .T. ) ;
#88 = LINE ( 'NONE', #299, #96 ) ;
#89 = CONICAL_SURFACE ( 'NONE', #154, 6.235000000000000320, 0.7853981633974533860 ) ;
#90 = CARTESIAN_POINT ( 'NONE',  ( 0.000000000000000000, 0.000000000000000000, 0.000000000000000000 ) ) ;
#91 = AXIS2_PLACEMENT_3D ( 'NONE', #214, #276, #217 ) ;
#92 = CIRCLE ( 'NONE', #10, 5.985000000000001208 ) ;
#93 = APPLICATION_CONTEXT ( 'automotive_design' ) ;
#94 = EDGE_CURVE ( 'NONE', #128, #100, #284, .T. ) ;
#95 = DIRECTION ( 'NONE',  ( -0.000000000000000000, -1.000000000000000000, -0.000000000000000000 ) ) ;
#96 = VECTOR ( 'NONE', #361, 1000.000000000000000 ) ;
#97 = PRODUCT_DEFINITION_FORMATION_WITH_SPECIFIED_SOURCE ( 'ANY', '', #313, .NOT_KNOWN. ) ;
#98 = CLOSED_SHELL ( 'NONE', ( #351, #64, #309, #150, #19, #43, #73, #180, #195, #115, #240, #261, #30 ) ) ;
#99 = PRESENTATION_STYLE_ASSIGNMENT (( #246 ) ) ;
#100 = VERTEX_POINT ( 'NONE', #164 ) ;
#101 = CARTESIAN_POINT ( 'NONE',  ( 0.000000000000000000, 5.000000000000000000, 0.000000000000000000 ) ) ;
#102 = ORIENTED_EDGE ( 'NONE', *, *, #183, .F. ) ;
#103 = VERTEX_POINT ( 'NONE', #347 ) ;
#104 = AXIS2_PLACEMENT_3D ( 'NONE', #188, #95, #282 ) ;
#105 = STYLED_ITEM ( 'NONE', ( #359 ), #44 ) ;
#106 = DIRECTION ( 'NONE',  ( 0.000000000000000000, 0.000000000000000000, 1.000000000000000000 ) ) ;
#107 = CARTESIAN_POINT ( 'NONE',  ( 0.000000000000000000, 0.000000000000000000, 5.984999999999998543 ) ) ;
#108 = AXIS2_PLACEMENT_3D ( 'NONE', #101, #161, #193 ) ;
#109 = LINE ( 'NONE', #146, #186 ) ;
#110 = DIRECTION ( 'NONE',  ( 0.000000000000000000, 1.000000000000000000, 0.000000000000000000 ) ) ;
#111 = SURFACE_STYLE_USAGE ( .BOTH. , #24 ) ;
#112 = DIRECTION ( 'NONE',  ( 0.000000000000000000, 0.000000000000000000, 1.000000000000000000 ) ) ;
#113 = ORIENTED_EDGE ( 'NONE', *, *, #270, .T. ) ;
#114 =( LENGTH_UNIT ( ) NAMED_UNIT ( * ) SI_UNIT ( .MILLI., .METRE. ) );
#115 = ADVANCED_FACE ( 'NONE', ( #71, #285 ), #12, .T. ) ;
#116 = EDGE_CURVE ( 'NONE', #192, #45, #264, .T. ) ;
#117 = DIRECTION ( 'NONE',  ( 0.000000000000000000, 0.000000000000000000, 1.000000000000000000 ) ) ;
#118 = EDGE_CURVE ( 'NONE', #128, #103, #92, .T. ) ;
#119 = DIRECTION ( 'NONE',  ( 0.000000000000000000, 0.000000000000000000, 1.000000000000000000 ) ) ;
#120 = AXIS2_PLACEMENT_3D ( 'NONE', #228, #54, #364 ) ;
#121 = EDGE_CURVE ( 'NONE', #35, #380, #85, .T. ) ;
#122 = CIRCLE ( 'NONE', #169, 5.985000000000001208 ) ;
#123 = AXIS2_PLACEMENT_3D ( 'NONE', #266, #289, #15 ) ;
#124 = DIRECTION ( 'NONE',  ( 8.659560562355008046E-17, 0.7071067811865414665, -0.7071067811865536790 ) ) ;
#125 = EDGE_CURVE ( 'NONE', #233, #45, #57, .T. ) ;
#126 = ORIENTED_EDGE ( 'NONE', *, *, #139, .T. ) ;
#127 = VECTOR ( 'NONE', #365, 1000.000000000000000 ) ;
#128 = VERTEX_POINT ( 'NONE', #244 ) ;
#129 = CARTESIAN_POINT ( 'NONE',  ( 7.482591942790327058E-16, 0.000000000000000000, -5.984999999999998543 ) ) ;
#130 = VERTEX_POINT ( 'NONE', #60 ) ;
#131 = CARTESIAN_POINT ( 'NONE',  ( 7.329511092896911081E-16, -16.92813634160595271, -5.985000000000001208 ) ) ;
#132 = ORIENTED_EDGE ( 'NONE', *, *, #226, .F. ) ;
#133 =( NAMED_UNIT ( * ) PLANE_ANGLE_UNIT ( ) SI_UNIT ( $, .RADIAN. ) );
#134 = ORIENTED_EDGE ( 'NONE', *, *, #369, .T. ) ;
#135 = ORIENTED_EDGE ( 'NONE', *, *, #369, .F. ) ;
#136 = CIRCLE ( 'NONE', #184, 6.235000000000000320 ) ;
#137 = DIRECTION ( 'NONE',  ( 0.000000000000000000, 0.000000000000000000, 1.000000000000000000 ) ) ;
#138 = CYLINDRICAL_SURFACE ( 'NONE', #157, 6.235000000000000320 ) ;
#139 = EDGE_CURVE ( 'NONE', #230, #69, #247, .T. ) ;
#140 = AXIS2_PLACEMENT_3D ( 'NONE', #52, #84, #201 ) ;
#141 = DIRECTION ( 'NONE',  ( 0.000000000000000000, 0.000000000000000000, 1.000000000000000000 ) ) ;
#142 = CARTESIAN_POINT ( 'NONE',  ( 0.000000000000000000, 0.2500000000000084377, 5.080000000000000071 ) ) ;
#143 = CARTESIAN_POINT ( 'NONE',  ( 0.000000000000000000, 0.000000000000000000, 0.000000000000000000 ) ) ;
#144 = ORIENTED_EDGE ( 'NONE', *, *, #13, .F. ) ;
#145 = VECTOR ( 'NONE', #376, 1000.000000000000000 ) ;
#146 = CARTESIAN_POINT ( 'NONE',  ( 0.000000000000000000, -16.92813634160595271, 5.985000000000001208 ) ) ;
#147 = CARTESIAN_POINT ( 'NONE',  ( 0.000000000000000000, 5.000000000000000000, 5.985000000000001208 ) ) ;
#148 = EDGE_LOOP ( 'NONE', ( #113, #323 ) ) ;
#149 = DIRECTION ( 'NONE',  ( -0.000000000000000000, 1.000000000000000000, -0.000000000000000000 ) ) ;
#150 = ADVANCED_FACE ( 'NONE', ( #155 ), #367, .F. ) ;
#151 = DIRECTION ( 'NONE',  ( 0.000000000000000000, 0.000000000000000000, 1.000000000000000000 ) ) ;
#152 = DIRECTION ( 'NONE',  ( -0.000000000000000000, 1.000000000000000000, -0.000000000000000000 ) ) ;
#153 = CYLINDRICAL_SURFACE ( 'NONE', #340, 5.080000000000000071 ) ;
#154 = AXIS2_PLACEMENT_3D ( 'NONE', #306, #82, #112 ) ;
#155 = FACE_OUTER_BOUND ( 'NONE', #253, .T. ) ;
#156 = FILL_AREA_STYLE_COLOUR ( '', #257 ) ;
#157 = AXIS2_PLACEMENT_3D ( 'NONE', #234, #260, #390 ) ;
#158 = ORIENTED_EDGE ( 'NONE', *, *, #53, .F. ) ;
#159 = ORIENTED_EDGE ( 'NONE', *, *, #125, .F. ) ;
#160 = ORIENTED_EDGE ( 'NONE', *, *, #72, .F. ) ;
#161 = DIRECTION ( 'NONE',  ( 0.000000000000000000, 1.000000000000000000, 0.000000000000000000 ) ) ;
#162 = FILL_AREA_STYLE ('',( #156 ) ) ;
#163 = EDGE_LOOP ( 'NONE', ( #342, #265 ) ) ;
#164 = CARTESIAN_POINT ( 'NONE',  ( 7.329511092896911081E-16, 5.000000000000000000, -5.985000000000001208 ) ) ;
#165 = ORIENTED_EDGE ( 'NONE', *, *, #94, .T. ) ;
#166 = ORIENTED_EDGE ( 'NONE', *, *, #94, .F. ) ;
#167 = AXIS2_PLACEMENT_3D ( 'NONE', #295, #357, #271 ) ;
#168 = CARTESIAN_POINT ( 'NONE',  ( 0.000000000000000000, 0.2499999999999993616, -6.235000000000000320 ) ) ;
#169 = AXIS2_PLACEMENT_3D ( 'NONE', #314, #224, #34 ) ;
#170 = FACE_OUTER_BOUND ( 'NONE', #70, .T. ) ;
#171 = DIRECTION ( 'NONE',  ( 0.000000000000000000, 0.000000000000000000, 1.000000000000000000 ) ) ;
#172 = ORIENTED_EDGE ( 'NONE', *, *, #121, .T. ) ;
#173 = FACE_OUTER_BOUND ( 'NONE', #283, .T. ) ;
#174 = CARTESIAN_POINT ( 'NONE',  ( 0.000000000000000000, 5.000000000000000000, 0.000000000000000000 ) ) ;
#175 = DIRECTION ( 'NONE',  ( -0.000000000000000000, 1.000000000000000000, -0.000000000000000000 ) ) ;
#176 = DIRECTION ( 'NONE',  ( 0.000000000000000000, -0.000000000000000000, 1.000000000000000000 ) ) ;
#177 = CYLINDRICAL_SURFACE ( 'NONE', #372, 5.080000000000000071 ) ;
#178 = FACE_BOUND ( 'NONE', #148, .T. ) ;
#179 = CARTESIAN_POINT ( 'NONE',  ( 6.221205739668554322E-16, 0.2500000000000084377, -5.080000000000000071 ) ) ;
#180 = ADVANCED_FACE ( 'NONE', ( #173, #178 ), #345, .F. ) ;
#181 = APPLICATION_CONTEXT ( 'automotive_design' ) ;
#182 = DIRECTION ( 'NONE',  ( -0.000000000000000000, 1.000000000000000000, -0.000000000000000000 ) ) ;
#183 = EDGE_CURVE ( 'NONE', #130, #233, #88, .T. ) ;
#184 = AXIS2_PLACEMENT_3D ( 'NONE', #26, #394, #263 ) ;
#185 =( NAMED_UNIT ( * ) PLANE_ANGLE_UNIT ( ) SI_UNIT ( $, .RADIAN. ) );
#186 = VECTOR ( 'NONE', #175, 1000.000000000000000 ) ;
#187 = ORIENTED_EDGE ( 'NONE', *, *, #270, .F. ) ;
#188 = CARTESIAN_POINT ( 'NONE',  ( 0.000000000000000000, 0.5000000000000004441, 0.000000000000000000 ) ) ;
#189 = FACE_OUTER_BOUND ( 'NONE', #163, .T. ) ;
#190 = VECTOR ( 'NONE', #329, 1000.000000000000000 ) ;
#191 = SURFACE_STYLE_FILL_AREA ( #162 ) ;
#192 = VERTEX_POINT ( 'NONE', #23 ) ;
#193 = DIRECTION ( 'NONE',  ( 0.000000000000000000, -0.000000000000000000, 1.000000000000000000 ) ) ;
#194 = ORIENTED_EDGE ( 'NONE', *, *, #1, .T. ) ;
#195 = ADVANCED_FACE ( 'NONE', ( #20 ), #388, .F. ) ;
#196 = CARTESIAN_POINT ( 'NONE',  ( 0.000000000000000000, 5.000000000000000000, 0.000000000000000000 ) ) ;
#197 = VERTEX_POINT ( 'NONE', #147 ) ;
#198 = CONICAL_SURFACE ( 'NONE', #229, 6.235000000000000320, 0.7853981633974533860 ) ;
#199 = ORIENTED_EDGE ( 'NONE', *, *, #337, .T. ) ;
#200 = CARTESIAN_POINT ( 'NONE',  ( 6.527367439455387262E-16, 0.5000000000000000000, -5.329999999999996518 ) ) ;
#201 = DIRECTION ( 'NONE',  ( 0.000000000000000000, 0.000000000000000000, -1.000000000000000000 ) ) ;
#202 = DIRECTION ( 'NONE',  ( 0.000000000000000000, 0.000000000000000000, 1.000000000000000000 ) ) ;
#203 = EDGE_LOOP ( 'NONE', ( #159, #160, #248, #144 ) ) ;
#204 = CIRCLE ( 'NONE', #167, 5.080000000000000071 ) ;
#205 = DIRECTION ( 'NONE',  ( 0.000000000000000000, 1.000000000000000000, 0.000000000000000000 ) ) ;
#206 = DIRECTION ( 'NONE',  ( -0.000000000000000000, -1.000000000000000000, -0.000000000000000000 ) ) ;
#207 = ORIENTED_EDGE ( 'NONE', *, *, #41, .T. ) ;
#208 = CARTESIAN_POINT ( 'NONE',  ( 0.000000000000000000, -16.92813634160595271, 0.000000000000000000 ) ) ;
#209 = SURFACE_STYLE_FILL_AREA ( #297 ) ;
#210 = CARTESIAN_POINT ( 'NONE',  ( 0.000000000000000000, 0.000000000000000000, 5.080000000000000071 ) ) ;
#211 = DIRECTION ( 'NONE',  ( 0.000000000000000000, 1.000000000000000000, 0.000000000000000000 ) ) ;
#212 = ADVANCED_BREP_SHAPE_REPRESENTATION ( '[M-AE-C-008] 12.5mm X 5.0mm CELL', ( #44, #91 ), #274 ) ;
#213 = DIRECTION ( 'NONE',  ( 0.000000000000000000, 0.000000000000000000, 1.000000000000000000 ) ) ;
#214 = CARTESIAN_POINT ( 'NONE',  ( 0.000000000000000000, 0.000000000000000000, 0.000000000000000000 ) ) ;
#215 = EDGE_CURVE ( 'NONE', #100, #197, #310, .T. ) ;
#216 = AXIS2_PLACEMENT_3D ( 'NONE', #196, #319, #137 ) ;
#217 = DIRECTION ( 'NONE',  ( 1.000000000000000000, 0.000000000000000000, 0.000000000000000000 ) ) ;
#218 = EDGE_CURVE ( 'NONE', #385, #230, #331, .T. ) ;
#219 = FACE_OUTER_BOUND ( 'NONE', #286, .T. ) ;
#220 = ORIENTED_EDGE ( 'NONE', *, *, #27, .T. ) ;
#221 = VECTOR ( 'NONE', #326, 1000.000000000000000 ) ;
#222 =( NAMED_UNIT ( * ) SI_UNIT ( $, .STERADIAN. ) SOLID_ANGLE_UNIT ( ) );
#223 = VECTOR ( 'NONE', #56, 1000.000000000000000 ) ;
#224 = DIRECTION ( 'NONE',  ( 0.000000000000000000, 1.000000000000000000, 0.000000000000000000 ) ) ;
#225 = EDGE_CURVE ( 'NONE', #385, #9, #242, .T. ) ;
#226 = EDGE_CURVE ( 'NONE', #130, #35, #321, .T. ) ;
#227 = FACE_OUTER_BOUND ( 'NONE', #203, .T. ) ;
#228 = CARTESIAN_POINT ( 'NONE',  ( 0.000000000000000000, -16.92813634160595271, 0.000000000000000000 ) ) ;
#229 = AXIS2_PLACEMENT_3D ( 'NONE', #258, #383, #47 ) ;
#230 = VERTEX_POINT ( 'NONE', #330 ) ;
#231 = CARTESIAN_POINT ( 'NONE',  ( 0.000000000000000000, 0.000000000000000000, 0.000000000000000000 ) ) ;
#232 = CARTESIAN_POINT ( 'NONE',  ( 0.000000000000000000, 0.000000000000000000, 0.000000000000000000 ) ) ;
#233 = VERTEX_POINT ( 'NONE', #179 ) ;
#234 = CARTESIAN_POINT ( 'NONE',  ( 0.000000000000000000, 5.000000000000000000, 0.000000000000000000 ) ) ;
#235 = CARTESIAN_POINT ( 'NONE',  ( 0.000000000000000000, 0.5000000000000004441, 0.000000000000000000 ) ) ;
#236 = DIRECTION ( 'NONE',  ( -0.000000000000000000, 1.000000000000000000, -0.000000000000000000 ) ) ;
#237 = ORIENTED_EDGE ( 'NONE', *, *, #116, .F. ) ;
#238 = DIRECTION ( 'NONE',  ( 0.000000000000000000, 1.000000000000000000, 0.000000000000000000 ) ) ;
#239 = LINE ( 'NONE', #241, #127 ) ;
#240 = ADVANCED_FACE ( 'NONE', ( #268 ), #177, .F. ) ;
#241 = CARTESIAN_POINT ( 'NONE',  ( 0.000000000000000000, 5.000000000000000000, -6.235000000000000320 ) ) ;
#242 = CIRCLE ( 'NONE', #48, 6.235000000000000320 ) ;
#243 = CIRCLE ( 'NONE', #104, 5.985000000000001208 ) ;
#244 = CARTESIAN_POINT ( 'NONE',  ( 7.329511092896911081E-16, 0.5000000000000004441, -5.985000000000001208 ) ) ;
#245 =( LENGTH_UNIT ( ) NAMED_UNIT ( * ) SI_UNIT ( .MILLI., .METRE. ) );
#246 = SURFACE_STYLE_USAGE ( .BOTH. , #252 ) ;
#247 = CIRCLE ( 'NONE', #78, 6.235000000000000320 ) ;
#248 = ORIENTED_EDGE ( 'NONE', *, *, #7, .T. ) ;
#249 = PRODUCT_DEFINITION_CONTEXT ( 'detailed design', #181, 'design' ) ;
#250 = CARTESIAN_POINT ( 'NONE',  ( 0.000000000000000000, 0.2500000000000084377, 0.000000000000000000 ) ) ;
#251 = EDGE_LOOP ( 'NONE', ( #166, #384, #296, #134 ) ) ;
#252 = SURFACE_SIDE_STYLE ('',( #191 ) ) ;
#253 = EDGE_LOOP ( 'NONE', ( #38, #165, #377, #374 ) ) ;
#254 = PRODUCT_DEFINITION_SHAPE ( 'NONE', 'NONE',  #308 ) ;
#255 = ORIENTED_EDGE ( 'NONE', *, *, #225, .F. ) ;
#256 = FACE_BOUND ( 'NONE', #358, .T. ) ;
#257 = COLOUR_RGB ( '',0.6980392156862744724, 0.6980392156862744724, 0.6980392156862744724 ) ;
#258 = CARTESIAN_POINT ( 'NONE',  ( 0.000000000000000000, 0.2499999999999993616, 0.000000000000000000 ) ) ;
#259 = PRESENTATION_LAYER_ASSIGNMENT (  '', '', ( #105 ) ) ;
#260 = DIRECTION ( 'NONE',  ( -0.000000000000000000, -1.000000000000000000, -0.000000000000000000 ) ) ;
#261 = ADVANCED_FACE ( 'NONE', ( #391 ), #89, .T. ) ;
#262 = DIRECTION ( 'NONE',  ( -0.000000000000000000, -1.000000000000000000, -0.000000000000000000 ) ) ;
#263 = DIRECTION ( 'NONE',  ( 0.000000000000000000, 0.000000000000000000, 1.000000000000000000 ) ) ;
#264 = CIRCLE ( 'NONE', #368, 5.329999999999996518 ) ;
#265 = ORIENTED_EDGE ( 'NONE', *, *, #225, .T. ) ;
#266 = CARTESIAN_POINT ( 'NONE',  ( 0.000000000000000000, 0.5000000000000000000, 0.000000000000000000 ) ) ;
#267 = DIRECTION ( 'NONE',  ( -0.000000000000000000, -1.000000000000000000, -0.000000000000000000 ) ) ;
#268 = FACE_OUTER_BOUND ( 'NONE', #74, .T. ) ;
#269 = LINE ( 'NONE', #328, #223 ) ;
#270 = EDGE_CURVE ( 'NONE', #35, #130, #204, .T. ) ;
#271 = DIRECTION ( 'NONE',  ( 0.000000000000000000, 0.000000000000000000, 1.000000000000000000 ) ) ;
#272 = CARTESIAN_POINT ( 'NONE',  ( 0.000000000000000000, 0.2500000000000084377, 0.000000000000000000 ) ) ;
#273 = PRODUCT_CONTEXT ( 'NONE', #93, 'mechanical' ) ;
#274 =( GEOMETRIC_REPRESENTATION_CONTEXT ( 3 ) GLOBAL_UNCERTAINTY_ASSIGNED_CONTEXT ( ( #32 ) ) GLOBAL_UNIT_ASSIGNED_CONTEXT ( ( #375, #185, #222 ) ) REPRESENTATION_CONTEXT ( 'NONE', 'WORKASPACE' ) );
#275 = VECTOR ( 'NONE', #320, 1000.000000000000000 ) ;
#276 = DIRECTION ( 'NONE',  ( 0.000000000000000000, 0.000000000000000000, 1.000000000000000000 ) ) ;
#277 = PRODUCT_RELATED_PRODUCT_CATEGORY ( 'part', '', ( #313 ) ) ;
#278 = STYLED_ITEM ( 'NONE', ( #99 ), #212 ) ;
#279 = ORIENTED_EDGE ( 'NONE', *, *, #305, .T. ) ;
#280 = AXIS2_PLACEMENT_3D ( 'NONE', #293, #17, #141 ) ;
#281 = ORIENTED_EDGE ( 'NONE', *, *, #337, .F. ) ;
#282 = DIRECTION ( 'NONE',  ( 0.000000000000000000, 0.000000000000000000, 1.000000000000000000 ) ) ;
#283 = EDGE_LOOP ( 'NONE', ( #199, #220 ) ) ;
#284 = LINE ( 'NONE', #131, #145 ) ;
#285 = FACE_OUTER_BOUND ( 'NONE', #50, .T. ) ;
#286 = EDGE_LOOP ( 'NONE', ( #316, #389, #237, #14 ) ) ;
#287 = VERTEX_POINT ( 'NONE', #107 ) ;
#288 = ORIENTED_EDGE ( 'NONE', *, *, #335, .T. ) ;
#289 = DIRECTION ( 'NONE',  ( -0.000000000000000000, -1.000000000000000000, -0.000000000000000000 ) ) ;
#290 = AXIS2_PLACEMENT_3D ( 'NONE', #272, #110, #119 ) ;
#291 = ORIENTED_EDGE ( 'NONE', *, *, #218, .F. ) ;
#292 = AXIS2_PLACEMENT_3D ( 'NONE', #232, #206, #106 ) ;
#293 = CARTESIAN_POINT ( 'NONE',  ( 0.000000000000000000, 0.2500000000000084377, 0.000000000000000000 ) ) ;
#294 = CARTESIAN_POINT ( 'NONE',  ( 0.000000000000000000, 0.2499999999999993616, 6.235000000000000320 ) ) ;
#295 = CARTESIAN_POINT ( 'NONE',  ( 0.000000000000000000, 0.000000000000000000, 0.000000000000000000 ) ) ;
#296 = ORIENTED_EDGE ( 'NONE', *, *, #8, .T. ) ;
#297 = FILL_AREA_STYLE ('',( #301 ) ) ;
#298 = DIRECTION ( 'NONE',  ( 0.000000000000000000, 0.000000000000000000, 1.000000000000000000 ) ) ;
#299 = CARTESIAN_POINT ( 'NONE',  ( 6.221205739668554322E-16, 0.000000000000000000, -5.080000000000000071 ) ) ;
#300 = ORIENTED_EDGE ( 'NONE', *, *, #72, .T. ) ;
#301 = FILL_AREA_STYLE_COLOUR ( '', #36 ) ;
#302 = CARTESIAN_POINT ( 'NONE',  ( 0.000000000000000000, 0.5000000000000000000, 0.000000000000000000 ) ) ;
#303 = CARTESIAN_POINT ( 'NONE',  ( 0.000000000000000000, 0.000000000000000000, 0.000000000000000000 ) ) ;
#304 = DIRECTION ( 'NONE',  ( 0.000000000000000000, 0.000000000000000000, 1.000000000000000000 ) ) ;
#305 = EDGE_CURVE ( 'NONE', #69, #230, #136, .T. ) ;
#306 = CARTESIAN_POINT ( 'NONE',  ( 0.000000000000000000, 0.2499999999999993616, 0.000000000000000000 ) ) ;
#307 = CARTESIAN_POINT ( 'NONE',  ( 0.000000000000000000, 0.2499999999999993616, 0.000000000000000000 ) ) ;
#308 = PRODUCT_DEFINITION ( 'UNKNOWN', '', #97, #249 ) ;
#309 = ADVANCED_FACE ( 'NONE', ( #2 ), #153, .F. ) ;
#310 = CIRCLE ( 'NONE', #4, 5.985000000000001208 ) ;
#311 = CIRCLE ( 'NONE', #123, 5.329999999999996518 ) ;
#312 =( GEOMETRIC_REPRESENTATION_CONTEXT ( 3 ) GLOBAL_UNCERTAINTY_ASSIGNED_CONTEXT ( ( #3 ) ) GLOBAL_UNIT_ASSIGNED_CONTEXT ( ( #114, #133, #352 ) ) REPRESENTATION_CONTEXT ( 'NONE', 'WORKASPACE' ) );
#313 = PRODUCT ( '[M-AE-C-008] 12.5mm X 5.0mm CELL', '[M-AE-C-008] 12.5mm X 5.0mm CELL', '', ( #273 ) ) ;
#314 = CARTESIAN_POINT ( 'NONE',  ( 0.000000000000000000, 5.000000000000000000, 0.000000000000000000 ) ) ;
#315 = ORIENTED_EDGE ( 'NONE', *, *, #13, .T. ) ;
#316 = ORIENTED_EDGE ( 'NONE', *, *, #333, .F. ) ;
#317 = DIRECTION ( 'NONE',  ( 0.000000000000000000, 0.000000000000000000, 1.000000000000000000 ) ) ;
#318 = EDGE_LOOP ( 'NONE', ( #132, #18, #11, #327 ) ) ;
#319 = DIRECTION ( 'NONE',  ( 0.000000000000000000, 1.000000000000000000, 0.000000000000000000 ) ) ;
#320 = DIRECTION ( 'NONE',  ( 0.000000000000000000, 0.7071067811865414665, 0.7071067811865536790 ) ) ;
#321 = CIRCLE ( 'NONE', #31, 5.080000000000000071 ) ;
#322 = CARTESIAN_POINT ( 'NONE',  ( 0.000000000000000000, 0.000000000000000000, 0.000000000000000000 ) ) ;
#323 = ORIENTED_EDGE ( 'NONE', *, *, #226, .T. ) ;
#324 = CIRCLE ( 'NONE', #344, 5.984999999999998543 ) ;
#325 = CARTESIAN_POINT ( 'NONE',  ( 0.000000000000000000, 5.000000000000000000, -6.235000000000000320 ) ) ;
#326 = DIRECTION ( 'NONE',  ( -0.000000000000000000, -1.000000000000000000, -0.000000000000000000 ) ) ;
#327 = ORIENTED_EDGE ( 'NONE', *, *, #121, .F. ) ;
#328 = CARTESIAN_POINT ( 'NONE',  ( 7.635672792683746979E-16, 0.2499999999999993616, -6.235000000000000320 ) ) ;
#329 = DIRECTION ( 'NONE',  ( -0.000000000000000000, 1.000000000000000000, -0.000000000000000000 ) ) ;
#330 = CARTESIAN_POINT ( 'NONE',  ( 7.635672792683746979E-16, 0.2499999999999993616, 6.235000000000000320 ) ) ;
#331 = LINE ( 'NONE', #59, #221 ) ;
#332 = PRESENTATION_LAYER_ASSIGNMENT (  '', '', ( #278 ) ) ;
#333 = EDGE_CURVE ( 'NONE', #233, #380, #63, .T. ) ;
#334 = AXIS2_PLACEMENT_3D ( 'NONE', #302, #238, #176 ) ;
#335 = EDGE_CURVE ( 'NONE', #9, #69, #239, .T. ) ;
#336 = CARTESIAN_POINT ( 'NONE',  ( 6.221205739668554322E-16, 0.2500000000000084377, -5.080000000000000071 ) ) ;
#337 = EDGE_CURVE ( 'NONE', #287, #349, #343, .T. ) ;
#338 = UNCERTAINTY_MEASURE_WITH_UNIT (LENGTH_MEASURE( 1.000000000000000082E-05 ), #245, 'distance_accuracy_value', 'NONE');
#339 = DIRECTION ( 'NONE',  ( 0.000000000000000000, 0.000000000000000000, 1.000000000000000000 ) ) ;
#340 = AXIS2_PLACEMENT_3D ( 'NONE', #143, #236, #117 ) ;
#341 = CARTESIAN_POINT ( 'NONE',  ( 0.000000000000000000, 0.2500000000000084377, 5.080000000000000071 ) ) ;
#342 = ORIENTED_EDGE ( 'NONE', *, *, #53, .T. ) ;
#343 = CIRCLE ( 'NONE', #292, 5.984999999999998543 ) ;
#344 = AXIS2_PLACEMENT_3D ( 'NONE', #231, #262, #393 ) ;
#345 = PLANE ( 'NONE',  #366 ) ;
#346 = ORIENTED_EDGE ( 'NONE', *, *, #371, .F. ) ;
#347 = CARTESIAN_POINT ( 'NONE',  ( 0.000000000000000000, 0.5000000000000004441, 5.985000000000001208 ) ) ;
#348 = ORIENTED_EDGE ( 'NONE', *, *, #118, .F. ) ;
#349 = VERTEX_POINT ( 'NONE', #129 ) ;
#350 = ORIENTED_EDGE ( 'NONE', *, *, #41, .F. ) ;
#351 = ADVANCED_FACE ( 'NONE', ( #219 ), #65, .F. ) ;
#352 =( NAMED_UNIT ( * ) SI_UNIT ( $, .STERADIAN. ) SOLID_ANGLE_UNIT ( ) );
#353 = FACE_OUTER_BOUND ( 'NONE', #392, .T. ) ;
#354 = DIRECTION ( 'NONE',  ( 0.000000000000000000, -0.000000000000000000, 1.000000000000000000 ) ) ;
#355 = EDGE_LOOP ( 'NONE', ( #378, #281, #207, #83 ) ) ;
#356 = CARTESIAN_POINT ( 'NONE',  ( 0.000000000000000000, 0.2500000000000084377, 0.000000000000000000 ) ) ;
#357 = DIRECTION ( 'NONE',  ( 0.000000000000000000, 1.000000000000000000, 0.000000000000000000 ) ) ;
#358 = EDGE_LOOP ( 'NONE', ( #135, #77 ) ) ;
#359 = PRESENTATION_STYLE_ASSIGNMENT (( #111 ) ) ;
#360 = DIRECTION ( 'NONE',  ( -0.000000000000000000, -1.000000000000000000, -0.000000000000000000 ) ) ;
#361 = DIRECTION ( 'NONE',  ( -0.000000000000000000, 1.000000000000000000, -0.000000000000000000 ) ) ;
#362 = ORIENTED_EDGE ( 'NONE', *, *, #335, .F. ) ;
#363 = CARTESIAN_POINT ( 'NONE',  ( 0.000000000000000000, 0.5000000000000000000, 0.000000000000000000 ) ) ;
#364 = DIRECTION ( 'NONE',  ( 0.000000000000000000, 0.000000000000000000, 1.000000000000000000 ) ) ;
#365 = DIRECTION ( 'NONE',  ( -0.000000000000000000, -1.000000000000000000, -0.000000000000000000 ) ) ;
#366 = AXIS2_PLACEMENT_3D ( 'NONE', #90, #58, #354 ) ;
#367 = CYLINDRICAL_SURFACE ( 'NONE', #379, 5.985000000000001208 ) ;
#368 = AXIS2_PLACEMENT_3D ( 'NONE', #363, #267, #298 ) ;
#369 = EDGE_CURVE ( 'NONE', #197, #100, #122, .T. ) ;
#370 = ORIENTED_EDGE ( 'NONE', *, *, #116, .T. ) ;
#371 = EDGE_CURVE ( 'NONE', #103, #128, #243, .T. ) ;
#372 = AXIS2_PLACEMENT_3D ( 'NONE', #303, #152, #171 ) ;
#373 =( NAMED_UNIT ( * ) SI_UNIT ( $, .STERADIAN. ) SOLID_ANGLE_UNIT ( ) );
#374 = ORIENTED_EDGE ( 'NONE', *, *, #8, .F. ) ;
#375 =( LENGTH_UNIT ( ) NAMED_UNIT ( * ) SI_UNIT ( .MILLI., .METRE. ) );
#376 = DIRECTION ( 'NONE',  ( -0.000000000000000000, 1.000000000000000000, -0.000000000000000000 ) ) ;
#377 = ORIENTED_EDGE ( 'NONE', *, *, #215, .T. ) ;
#378 = ORIENTED_EDGE ( 'NONE', *, *, #1, .F. ) ;
#379 = AXIS2_PLACEMENT_3D ( 'NONE', #208, #149, #304 ) ;
#380 = VERTEX_POINT ( 'NONE', #341 ) ;
#381 = MECHANICAL_DESIGN_GEOMETRIC_PRESENTATION_REPRESENTATION (  '', ( #278 ), #33 ) ;
#382 = AXIS2_PLACEMENT_3D ( 'NONE', #356, #205, #317 ) ;
#383 = DIRECTION ( 'NONE',  ( -0.000000000000000000, 1.000000000000000000, -0.000000000000000000 ) ) ;
#384 = ORIENTED_EDGE ( 'NONE', *, *, #118, .T. ) ;
#385 = VERTEX_POINT ( 'NONE', #66 ) ;
#386 = LINE ( 'NONE', #294, #16 ) ;
#387 = CIRCLE ( 'NONE', #216, 6.235000000000000320 ) ;
#388 = CYLINDRICAL_SURFACE ( 'NONE', #120, 5.985000000000001208 ) ;
#389 = ORIENTED_EDGE ( 'NONE', *, *, #125, .T. ) ;
#390 = DIRECTION ( 'NONE',  ( 0.000000000000000000, 0.000000000000000000, -1.000000000000000000 ) ) ;
#391 = FACE_OUTER_BOUND ( 'NONE', #355, .T. ) ;
#392 = EDGE_LOOP ( 'NONE', ( #291, #158, #288, #279 ) ) ;
#393 = DIRECTION ( 'NONE',  ( 0.000000000000000000, 0.000000000000000000, 1.000000000000000000 ) ) ;
#394 = DIRECTION ( 'NONE',  ( -0.000000000000000000, 1.000000000000000000, -0.000000000000000000 ) ) ;
ENDSEC;
END-ISO-10303-21;