ISO-10303-21;
HEADER;
FILE_DESCRIPTION (( 'STEP AP214' ),
    '1' );
FILE_NAME ('[M-AE-C-020] 12.5mm X 3.5mm CELL.STEP',
    '2023-08-02T12:35:40',
    ( '' ),
    ( '' ),
    'SwSTEP 2.0',
    'SolidWorks 2021',
    '' );
FILE_SCHEMA (( 'AUTOMOTIVE_DESIGN' ));
ENDSEC;

DATA;
#1 = DIRECTION ( 'NONE',  ( 1.000000000000000000, 0.000000000000000000, 0.000000000000000000 ) ) ;
#2 = VERTEX_POINT ( 'NONE', #231 ) ;
#3 = COLOUR_RGB ( '',0.6980392156862744724, 0.6980392156862744724, 0.6980392156862744724 ) ;
#4 = VERTEX_POINT ( 'NONE', #355 ) ;
#5 = EDGE_CURVE ( 'NONE', #147, #51, #258, .T. ) ;
#6 = SURFACE_STYLE_USAGE ( .BOTH. , #67 ) ;
#7 = ORIENTED_EDGE ( 'NONE', *, *, #299, .F. ) ;
#8 = VERTEX_POINT ( 'NONE', #149 ) ;
#9 = CIRCLE ( 'NONE', #282, 6.235000000000002096 ) ;
#10 = CARTESIAN_POINT ( 'NONE',  ( 0.000000000000000000, 0.2499999999999980571, 0.000000000000000000 ) ) ;
#11 = DIRECTION ( 'NONE',  ( 0.000000000000000000, 1.000000000000000000, 0.000000000000000000 ) ) ;
#12 = AXIS2_PLACEMENT_3D ( 'NONE', #75, #198, #14 ) ;
#13 = ADVANCED_FACE ( 'NONE', ( #178 ), #229, .F. ) ;
#14 = DIRECTION ( 'NONE',  ( 0.000000000000000000, 0.000000000000000000, 1.000000000000000000 ) ) ;
#15 = EDGE_LOOP ( 'NONE', ( #348, #107 ) ) ;
#16 = CONICAL_SURFACE ( 'NONE', #156, 5.080000000000000071, 0.7853981633974500554 ) ;
#17 = DIRECTION ( 'NONE',  ( -0.000000000000000000, 1.000000000000000000, -0.000000000000000000 ) ) ;
#18 = VERTEX_POINT ( 'NONE', #285 ) ;
#19 = CARTESIAN_POINT ( 'NONE',  ( 0.000000000000000000, 0.2500000000000028311, 0.000000000000000000 ) ) ;
#20 = CARTESIAN_POINT ( 'NONE',  ( 0.000000000000000000, 3.500000000000000000, 0.000000000000000000 ) ) ;
#21 = CARTESIAN_POINT ( 'NONE',  ( 0.000000000000000000, 0.000000000000000000, 0.000000000000000000 ) ) ;
#22 = DIRECTION ( 'NONE',  ( -0.000000000000000000, 1.000000000000000000, -0.000000000000000000 ) ) ;
#23 = DIRECTION ( 'NONE',  ( 0.000000000000000000, 0.000000000000000000, 1.000000000000000000 ) ) ;
#24 = DIRECTION ( 'NONE',  ( 0.000000000000000000, 0.000000000000000000, 1.000000000000000000 ) ) ;
#25 = UNCERTAINTY_MEASURE_WITH_UNIT (LENGTH_MEASURE( 1.000000000000000082E-05 ), #213, 'distance_accuracy_value', 'NONE');
#26 = DIRECTION ( 'NONE',  ( 0.000000000000000000, 1.000000000000000000, 0.000000000000000000 ) ) ;
#27 = DIRECTION ( 'NONE',  ( 0.000000000000000000, -0.000000000000000000, 1.000000000000000000 ) ) ;
#28 = DIRECTION ( 'NONE',  ( 0.000000000000000000, 0.000000000000000000, -1.000000000000000000 ) ) ;
#29 = CARTESIAN_POINT ( 'NONE',  ( 7.635672792683748951E-16, 0.2500000000000028311, 6.235000000000002096 ) ) ;
#30 = AXIS2_PLACEMENT_3D ( 'NONE', #375, #317, #40 ) ;
#31 = DIRECTION ( 'NONE',  ( -0.000000000000000000, 1.000000000000000000, -0.000000000000000000 ) ) ;
#32 = APPLICATION_PROTOCOL_DEFINITION ( 'draft international standard', 'automotive_design', 1998, #192 ) ;
#33 = DIRECTION ( 'NONE',  ( 0.000000000000000000, 0.000000000000000000, 1.000000000000000000 ) ) ;
#34 = ORIENTED_EDGE ( 'NONE', *, *, #121, .F. ) ;
#35 = MECHANICAL_DESIGN_GEOMETRIC_PRESENTATION_REPRESENTATION (  '', ( #160 ), #255 ) ;
#36 = EDGE_LOOP ( 'NONE', ( #112, #199 ) ) ;
#37 = CLOSED_SHELL ( 'NONE', ( #313, #383, #232, #339, #372, #298, #41, #181, #13, #77, #208, #233, #175 ) ) ;
#38 = VERTEX_POINT ( 'NONE', #350 ) ;
#39 = CARTESIAN_POINT ( 'NONE',  ( 0.000000000000000000, 0.5000000000000000000, 5.330000000000002736 ) ) ;
#40 = DIRECTION ( 'NONE',  ( 0.000000000000000000, 0.000000000000000000, 1.000000000000000000 ) ) ;
#41 = ADVANCED_FACE ( 'NONE', ( #87, #267 ), #293, .T. ) ;
#42 = EDGE_CURVE ( 'NONE', #145, #51, #82, .T. ) ;
#43 = LINE ( 'NONE', #109, #311 ) ;
#44 = DIRECTION ( 'NONE',  ( 0.000000000000000000, 0.000000000000000000, 1.000000000000000000 ) ) ;
#45 = VECTOR ( 'NONE', #274, 1000.000000000000000 ) ;
#46 = AXIS2_PLACEMENT_3D ( 'NONE', #376, #354, #146 ) ;
#47 = CARTESIAN_POINT ( 'NONE',  ( 7.635672792683748951E-16, 3.500000000000000000, 6.235000000000002096 ) ) ;
#48 = EDGE_LOOP ( 'NONE', ( #34, #210, #68, #72 ) ) ;
#49 = EDGE_CURVE ( 'NONE', #291, #102, #104, .T. ) ;
#50 = DIRECTION ( 'NONE',  ( 0.000000000000000000, 0.000000000000000000, -1.000000000000000000 ) ) ;
#51 = VERTEX_POINT ( 'NONE', #271 ) ;
#52 = CARTESIAN_POINT ( 'NONE',  ( 0.000000000000000000, 3.500000000000000000, -6.235000000000002096 ) ) ;
#53 = ORIENTED_EDGE ( 'NONE', *, *, #211, .F. ) ;
#54 = MECHANICAL_DESIGN_GEOMETRIC_PRESENTATION_REPRESENTATION (  '', ( #256 ), #108 ) ;
#55 = CARTESIAN_POINT ( 'NONE',  ( 6.221205739668554322E-16, 0.2499999999999980571, -5.080000000000000071 ) ) ;
#56 = ADVANCED_BREP_SHAPE_REPRESENTATION ( '[M-AE-C-020] 12.5mm X 3.5mm CELL', ( #385, #69 ), #286 ) ;
#57 = SURFACE_STYLE_USAGE ( .BOTH. , #128 ) ;
#58 = CARTESIAN_POINT ( 'NONE',  ( 6.221205739668554322E-16, 0.000000000000000000, -5.080000000000000071 ) ) ;
#59 = EDGE_CURVE ( 'NONE', #325, #4, #64, .T. ) ;
#60 = LINE ( 'NONE', #187, #342 ) ;
#61 = CARTESIAN_POINT ( 'NONE',  ( 0.000000000000000000, 0.000000000000000000, 5.080000000000000071 ) ) ;
#62 = FACE_OUTER_BOUND ( 'NONE', #366, .T. ) ;
#63 = DIRECTION ( 'NONE',  ( -0.000000000000000000, -1.000000000000000000, -0.000000000000000000 ) ) ;
#64 = CIRCLE ( 'NONE', #135, 5.985000000000001208 ) ;
#65 = ORIENTED_EDGE ( 'NONE', *, *, #202, .F. ) ;
#66 = EDGE_CURVE ( 'NONE', #191, #145, #330, .T. ) ;
#67 = SURFACE_SIDE_STYLE ('',( #276 ) ) ;
#68 = ORIENTED_EDGE ( 'NONE', *, *, #137, .T. ) ;
#69 = AXIS2_PLACEMENT_3D ( 'NONE', #308, #33, #1 ) ;
#70 = EDGE_LOOP ( 'NONE', ( #193, #344 ) ) ;
#71 = VECTOR ( 'NONE', #381, 1000.000000000000000 ) ;
#72 = ORIENTED_EDGE ( 'NONE', *, *, #59, .T. ) ;
#73 = AXIS2_PLACEMENT_3D ( 'NONE', #179, #290, #113 ) ;
#74 = ORIENTED_EDGE ( 'NONE', *, *, #265, .F. ) ;
#75 = CARTESIAN_POINT ( 'NONE',  ( 0.000000000000000000, 0.5000000000000000000, 0.000000000000000000 ) ) ;
#76 = ORIENTED_EDGE ( 'NONE', *, *, #248, .F. ) ;
#77 = ADVANCED_FACE ( 'NONE', ( #119, #390 ), #151, .T. ) ;
#78 = CARTESIAN_POINT ( 'NONE',  ( 7.635672792683748951E-16, 3.500000000000000000, 6.235000000000002096 ) ) ;
#79 = EDGE_LOOP ( 'NONE', ( #176, #237, #161, #235 ) ) ;
#80 = DIRECTION ( 'NONE',  ( -0.000000000000000000, 1.000000000000000000, -0.000000000000000000 ) ) ;
#81 = EDGE_LOOP ( 'NONE', ( #166, #196, #319, #280 ) ) ;
#82 = CIRCLE ( 'NONE', #238, 5.080000000000000071 ) ;
#83 = VECTOR ( 'NONE', #266, 1000.000000000000000 ) ;
#84 = CYLINDRICAL_SURFACE ( 'NONE', #277, 5.080000000000000071 ) ;
#85 = ORIENTED_EDGE ( 'NONE', *, *, #228, .T. ) ;
#86 = CYLINDRICAL_SURFACE ( 'NONE', #136, 6.235000000000002096 ) ;
#87 = FACE_BOUND ( 'NONE', #36, .T. ) ;
#88 = DIRECTION ( 'NONE',  ( 0.000000000000000000, 1.000000000000000000, 0.000000000000000000 ) ) ;
#89 = DIRECTION ( 'NONE',  ( 0.000000000000000000, 1.000000000000000000, 0.000000000000000000 ) ) ;
#90 = AXIS2_PLACEMENT_3D ( 'NONE', #154, #246, #360 ) ;
#91 =( NAMED_UNIT ( * ) SI_UNIT ( $, .STERADIAN. ) SOLID_ANGLE_UNIT ( ) );
#92 = CARTESIAN_POINT ( 'NONE',  ( 0.000000000000000000, 3.500000000000000000, 0.000000000000000000 ) ) ;
#93 = EDGE_CURVE ( 'NONE', #102, #291, #186, .T. ) ;
#94 = EDGE_CURVE ( 'NONE', #38, #131, #9, .T. ) ;
#95 = DIRECTION ( 'NONE',  ( -0.000000000000000000, 1.000000000000000000, -0.000000000000000000 ) ) ;
#96 = CARTESIAN_POINT ( 'NONE',  ( 7.482591942790327058E-16, 0.000000000000000000, -5.984999999999998543 ) ) ;
#97 = FILL_AREA_STYLE_COLOUR ( '', #328 ) ;
#98 = VECTOR ( 'NONE', #22, 1000.000000000000000 ) ;
#99 = PRESENTATION_STYLE_ASSIGNMENT (( #57 ) ) ;
#100 = DIRECTION ( 'NONE',  ( 0.000000000000000000, 0.000000000000000000, 1.000000000000000000 ) ) ;
#101 = ORIENTED_EDGE ( 'NONE', *, *, #66, .F. ) ;
#102 = VERTEX_POINT ( 'NONE', #96 ) ;
#103 = EDGE_LOOP ( 'NONE', ( #322, #327 ) ) ;
#104 = CIRCLE ( 'NONE', #303, 5.984999999999998543 ) ;
#105 = AXIS2_PLACEMENT_3D ( 'NONE', #230, #257, #203 ) ;
#106 = EDGE_CURVE ( 'NONE', #8, #251, #321, .T. ) ;
#107 = ORIENTED_EDGE ( 'NONE', *, *, #106, .T. ) ;
#108 =( GEOMETRIC_REPRESENTATION_CONTEXT ( 3 ) GLOBAL_UNCERTAINTY_ASSIGNED_CONTEXT ( ( #172 ) ) GLOBAL_UNIT_ASSIGNED_CONTEXT ( ( #120, #217, #296 ) ) REPRESENTATION_CONTEXT ( 'NONE', 'WORKASPACE' ) );
#109 = CARTESIAN_POINT ( 'NONE',  ( 0.000000000000000000, 0.2499999999999980571, 5.080000000000000071 ) ) ;
#110 = CARTESIAN_POINT ( 'NONE',  ( 0.000000000000000000, 0.2499999999999980571, 0.000000000000000000 ) ) ;
#111 = CARTESIAN_POINT ( 'NONE',  ( 0.000000000000000000, 0.5000000000000000000, 0.000000000000000000 ) ) ;
#112 = ORIENTED_EDGE ( 'NONE', *, *, #59, .F. ) ;
#113 = DIRECTION ( 'NONE',  ( 0.000000000000000000, 0.000000000000000000, 1.000000000000000000 ) ) ;
#114 = EDGE_LOOP ( 'NONE', ( #353, #224 ) ) ;
#115 = AXIS2_PLACEMENT_3D ( 'NONE', #218, #216, #335 ) ;
#116 = FACE_OUTER_BOUND ( 'NONE', #386, .T. ) ;
#117 = ORIENTED_EDGE ( 'NONE', *, *, #94, .F. ) ;
#118 = CARTESIAN_POINT ( 'NONE',  ( 0.000000000000000000, 0.2500000000000028311, 6.235000000000002096 ) ) ;
#119 = FACE_BOUND ( 'NONE', #15, .T. ) ;
#120 =( LENGTH_UNIT ( ) NAMED_UNIT ( * ) SI_UNIT ( .MILLI., .METRE. ) );
#121 = EDGE_CURVE ( 'NONE', #2, #4, #336, .T. ) ;
#122 = DIRECTION ( 'NONE',  ( 0.000000000000000000, 1.000000000000000000, 0.000000000000000000 ) ) ;
#123 = AXIS2_PLACEMENT_3D ( 'NONE', #389, #95, #241 ) ;
#124 = AXIS2_PLACEMENT_3D ( 'NONE', #394, #297, #129 ) ;
#125 = AXIS2_PLACEMENT_3D ( 'NONE', #334, #88, #23 ) ;
#126 = DIRECTION ( 'NONE',  ( -0.000000000000000000, 1.000000000000000000, -0.000000000000000000 ) ) ;
#127 = CIRCLE ( 'NONE', #343, 6.235000000000002096 ) ;
#128 = SURFACE_SIDE_STYLE ('',( #393 ) ) ;
#129 = DIRECTION ( 'NONE',  ( 0.000000000000000000, 0.000000000000000000, 1.000000000000000000 ) ) ;
#130 = ORIENTED_EDGE ( 'NONE', *, *, #315, .F. ) ;
#131 = VERTEX_POINT ( 'NONE', #29 ) ;
#132 = EDGE_LOOP ( 'NONE', ( #197, #346, #337, #204 ) ) ;
#133 = PRODUCT_RELATED_PRODUCT_CATEGORY ( 'part', '', ( #254 ) ) ;
#134 = ORIENTED_EDGE ( 'NONE', *, *, #49, .T. ) ;
#135 = AXIS2_PLACEMENT_3D ( 'NONE', #92, #182, #247 ) ;
#136 = AXIS2_PLACEMENT_3D ( 'NONE', #165, #200, #50 ) ;
#137 = EDGE_CURVE ( 'NONE', #18, #325, #212, .T. ) ;
#138 = AXIS2_PLACEMENT_3D ( 'NONE', #332, #26, #184 ) ;
#139 = DIRECTION ( 'NONE',  ( -0.000000000000000000, -1.000000000000000000, -0.000000000000000000 ) ) ;
#140 = DIRECTION ( 'NONE',  ( 0.000000000000000000, -0.000000000000000000, 1.000000000000000000 ) ) ;
#141 = CIRCLE ( 'NONE', #359, 5.985000000000001208 ) ;
#142 = DIRECTION ( 'NONE',  ( 0.000000000000000000, 0.000000000000000000, 1.000000000000000000 ) ) ;
#143 = DIRECTION ( 'NONE',  ( -0.000000000000000000, -1.000000000000000000, -0.000000000000000000 ) ) ;
#144 = FACE_OUTER_BOUND ( 'NONE', #314, .T. ) ;
#145 = VERTEX_POINT ( 'NONE', #55 ) ;
#146 = DIRECTION ( 'NONE',  ( 0.000000000000000000, 0.000000000000000000, 1.000000000000000000 ) ) ;
#147 = VERTEX_POINT ( 'NONE', #61 ) ;
#148 = DIRECTION ( 'NONE',  ( 0.000000000000000000, 0.7071067811865463515, 0.7071067811865487940 ) ) ;
#149 = CARTESIAN_POINT ( 'NONE',  ( 6.527367439455396137E-16, 0.5000000000000000000, -5.330000000000002736 ) ) ;
#150 = FACE_OUTER_BOUND ( 'NONE', #79, .T. ) ;
#151 = PLANE ( 'NONE',  #352 ) ;
#152 =( NAMED_UNIT ( * ) SI_UNIT ( $, .STERADIAN. ) SOLID_ANGLE_UNIT ( ) );
#153 = CIRCLE ( 'NONE', #371, 6.235000000000002096 ) ;
#154 = CARTESIAN_POINT ( 'NONE',  ( 0.000000000000000000, 0.000000000000000000, 0.000000000000000000 ) ) ;
#155 = DIRECTION ( 'NONE',  ( 0.000000000000000000, 1.000000000000000000, 0.000000000000000000 ) ) ;
#156 = AXIS2_PLACEMENT_3D ( 'NONE', #387, #122, #244 ) ;
#157 =( NAMED_UNIT ( * ) PLANE_ANGLE_UNIT ( ) SI_UNIT ( $, .RADIAN. ) );
#158 = APPLICATION_PROTOCOL_DEFINITION ( 'draft international standard', 'automotive_design', 1998, #365 ) ;
#159 = ORIENTED_EDGE ( 'NONE', *, *, #49, .F. ) ;
#160 = STYLED_ITEM ( 'NONE', ( #307 ), #56 ) ;
#161 = ORIENTED_EDGE ( 'NONE', *, *, #189, .T. ) ;
#162 = EDGE_CURVE ( 'NONE', #51, #145, #369, .T. ) ;
#163 = EDGE_CURVE ( 'NONE', #4, #325, #340, .T. ) ;
#164 = ORIENTED_EDGE ( 'NONE', *, *, #93, .F. ) ;
#165 = CARTESIAN_POINT ( 'NONE',  ( 0.000000000000000000, 3.500000000000000000, 0.000000000000000000 ) ) ;
#166 = ORIENTED_EDGE ( 'NONE', *, *, #275, .F. ) ;
#167 = CIRCLE ( 'NONE', #90, 5.080000000000000071 ) ;
#168 = CARTESIAN_POINT ( 'NONE',  ( 0.000000000000000000, 3.500000000000000000, -6.235000000000002096 ) ) ;
#169 = ORIENTED_EDGE ( 'NONE', *, *, #331, .T. ) ;
#170 = AXIS2_PLACEMENT_3D ( 'NONE', #20, #11, #140 ) ;
#171 = CIRCLE ( 'NONE', #138, 5.985000000000001208 ) ;
#172 = UNCERTAINTY_MEASURE_WITH_UNIT (LENGTH_MEASURE( 1.000000000000000082E-05 ), #120, 'distance_accuracy_value', 'NONE');
#173 = VECTOR ( 'NONE', #260, 1000.000000000000000 ) ;
#174 = CARTESIAN_POINT ( 'NONE',  ( 6.221205739668554322E-16, 0.000000000000000000, -5.080000000000000071 ) ) ;
#175 = ADVANCED_FACE ( 'NONE', ( #150 ), #16, .F. ) ;
#176 = ORIENTED_EDGE ( 'NONE', *, *, #331, .F. ) ;
#177 = FACE_OUTER_BOUND ( 'NONE', #240, .T. ) ;
#178 = FACE_OUTER_BOUND ( 'NONE', #48, .T. ) ;
#179 = CARTESIAN_POINT ( 'NONE',  ( 0.000000000000000000, 0.000000000000000000, 0.000000000000000000 ) ) ;
#180 = ORIENTED_EDGE ( 'NONE', *, *, #299, .T. ) ;
#181 = ADVANCED_FACE ( 'NONE', ( #357, #214 ), #333, .F. ) ;
#182 = DIRECTION ( 'NONE',  ( 0.000000000000000000, 1.000000000000000000, 0.000000000000000000 ) ) ;
#183 = CARTESIAN_POINT ( 'NONE',  ( 0.000000000000000000, 0.000000000000000000, 0.000000000000000000 ) ) ;
#184 = DIRECTION ( 'NONE',  ( 0.000000000000000000, 0.000000000000000000, 1.000000000000000000 ) ) ;
#185 = CARTESIAN_POINT ( 'NONE',  ( 0.000000000000000000, 0.5000000000000000000, 0.000000000000000000 ) ) ;
#186 = CIRCLE ( 'NONE', #391, 5.984999999999998543 ) ;
#187 = CARTESIAN_POINT ( 'NONE',  ( 7.635672792683748951E-16, 0.2500000000000028311, -6.235000000000002096 ) ) ;
#188 = DIRECTION ( 'NONE',  ( 0.000000000000000000, -0.000000000000000000, 1.000000000000000000 ) ) ;
#189 = EDGE_CURVE ( 'NONE', #51, #251, #43, .T. ) ;
#190 = FILL_AREA_STYLE ('',( #97 ) ) ;
#191 = VERTEX_POINT ( 'NONE', #174 ) ;
#192 = APPLICATION_CONTEXT ( 'automotive_design' ) ;
#193 = ORIENTED_EDGE ( 'NONE', *, *, #378, .T. ) ;
#194 = PRODUCT_DEFINITION_FORMATION_WITH_SPECIFIED_SOURCE ( 'ANY', '', #254, .NOT_KNOWN. ) ;
#195 = AXIS2_PLACEMENT_3D ( 'NONE', #234, #139, #379 ) ;
#196 = ORIENTED_EDGE ( 'NONE', *, *, #315, .T. ) ;
#197 = ORIENTED_EDGE ( 'NONE', *, *, #341, .F. ) ;
#198 = DIRECTION ( 'NONE',  ( -0.000000000000000000, 1.000000000000000000, -0.000000000000000000 ) ) ;
#199 = ORIENTED_EDGE ( 'NONE', *, *, #163, .F. ) ;
#200 = DIRECTION ( 'NONE',  ( -0.000000000000000000, -1.000000000000000000, -0.000000000000000000 ) ) ;
#201 = DIRECTION ( 'NONE',  ( 0.000000000000000000, 1.000000000000000000, 0.000000000000000000 ) ) ;
#202 = EDGE_CURVE ( 'NONE', #2, #18, #141, .T. ) ;
#203 = DIRECTION ( 'NONE',  ( 0.000000000000000000, 0.000000000000000000, 1.000000000000000000 ) ) ;
#204 = ORIENTED_EDGE ( 'NONE', *, *, #5, .F. ) ;
#205 = VECTOR ( 'NONE', #148, 1000.000000000000000 ) ;
#206 = FACE_OUTER_BOUND ( 'NONE', #220, .T. ) ;
#207 = ORIENTED_EDGE ( 'NONE', *, *, #5, .T. ) ;
#208 = ADVANCED_FACE ( 'NONE', ( #374 ), #320, .F. ) ;
#209 = DIRECTION ( 'NONE',  ( 0.000000000000000000, 0.000000000000000000, 1.000000000000000000 ) ) ;
#210 = ORIENTED_EDGE ( 'NONE', *, *, #368, .F. ) ;
#211 = EDGE_CURVE ( 'NONE', #131, #38, #127, .T. ) ;
#212 = LINE ( 'NONE', #356, #288 ) ;
#213 =( LENGTH_UNIT ( ) NAMED_UNIT ( * ) SI_UNIT ( .MILLI., .METRE. ) );
#214 = FACE_BOUND ( 'NONE', #70, .T. ) ;
#215 = FACE_OUTER_BOUND ( 'NONE', #81, .T. ) ;
#216 = DIRECTION ( 'NONE',  ( -0.000000000000000000, -1.000000000000000000, -0.000000000000000000 ) ) ;
#217 =( NAMED_UNIT ( * ) PLANE_ANGLE_UNIT ( ) SI_UNIT ( $, .RADIAN. ) );
#218 = CARTESIAN_POINT ( 'NONE',  ( 0.000000000000000000, 0.5000000000000000000, 0.000000000000000000 ) ) ;
#219 =( NAMED_UNIT ( * ) PLANE_ANGLE_UNIT ( ) SI_UNIT ( $, .RADIAN. ) );
#220 = EDGE_LOOP ( 'NONE', ( #130, #74, #85, #370 ) ) ;
#221 = PRODUCT_CONTEXT ( 'NONE', #192, 'mechanical' ) ;
#222 = EDGE_LOOP ( 'NONE', ( #134, #382 ) ) ;
#223 = CONICAL_SURFACE ( 'NONE', #123, 6.235000000000002096, 0.7853981633974500554 ) ;
#224 = ORIENTED_EDGE ( 'NONE', *, *, #202, .T. ) ;
#225 = VECTOR ( 'NONE', #302, 1000.000000000000000 ) ;
#226 = PRODUCT_DEFINITION_SHAPE ( 'NONE', 'NONE',  #273 ) ;
#227 = ORIENTED_EDGE ( 'NONE', *, *, #42, .F. ) ;
#228 = EDGE_CURVE ( 'NONE', #264, #38, #351, .T. ) ;
#229 = CYLINDRICAL_SURFACE ( 'NONE', #30, 5.985000000000001208 ) ;
#230 = CARTESIAN_POINT ( 'NONE',  ( 0.000000000000000000, 3.500000000000000000, 0.000000000000000000 ) ) ;
#231 = CARTESIAN_POINT ( 'NONE',  ( 7.329511092896911081E-16, 0.5000000000000000000, -5.985000000000001208 ) ) ;
#232 = ADVANCED_FACE ( 'NONE', ( #239 ), #84, .F. ) ;
#233 = ADVANCED_FACE ( 'NONE', ( #116 ), #305, .T. ) ;
#234 = CARTESIAN_POINT ( 'NONE',  ( 0.000000000000000000, 0.5000000000000000000, 0.000000000000000000 ) ) ;
#235 = ORIENTED_EDGE ( 'NONE', *, *, #106, .F. ) ;
#236 = DIRECTION ( 'NONE',  ( 0.000000000000000000, 0.7071067811865463515, 0.7071067811865487940 ) ) ;
#237 = ORIENTED_EDGE ( 'NONE', *, *, #162, .F. ) ;
#238 = AXIS2_PLACEMENT_3D ( 'NONE', #110, #201, #44 ) ;
#239 = FACE_OUTER_BOUND ( 'NONE', #132, .T. ) ;
#240 = EDGE_LOOP ( 'NONE', ( #227, #169, #76, #252 ) ) ;
#241 = DIRECTION ( 'NONE',  ( 0.000000000000000000, 0.000000000000000000, 1.000000000000000000 ) ) ;
#242 = CARTESIAN_POINT ( 'NONE',  ( 0.000000000000000000, 0.2500000000000028311, 0.000000000000000000 ) ) ;
#243 = PRESENTATION_LAYER_ASSIGNMENT (  '', '', ( #256 ) ) ;
#244 = DIRECTION ( 'NONE',  ( 0.000000000000000000, 0.000000000000000000, 1.000000000000000000 ) ) ;
#245 = CIRCLE ( 'NONE', #195, 5.330000000000002736 ) ;
#246 = DIRECTION ( 'NONE',  ( 0.000000000000000000, 1.000000000000000000, 0.000000000000000000 ) ) ;
#247 = DIRECTION ( 'NONE',  ( 0.000000000000000000, 0.000000000000000000, 1.000000000000000000 ) ) ;
#248 = EDGE_CURVE ( 'NONE', #251, #8, #245, .T. ) ;
#249 = DIRECTION ( 'NONE',  ( 8.659560562354948882E-17, 0.7071067811865463515, -0.7071067811865487940 ) ) ;
#250 = CARTESIAN_POINT ( 'NONE',  ( 0.000000000000000000, 0.000000000000000000, 0.000000000000000000 ) ) ;
#251 = VERTEX_POINT ( 'NONE', #39 ) ;
#252 = ORIENTED_EDGE ( 'NONE', *, *, #189, .F. ) ;
#253 = AXIS2_PLACEMENT_3D ( 'NONE', #10, #263, #209 ) ;
#254 = PRODUCT ( '[M-AE-C-020] 12.5mm X 3.5mm CELL', '[M-AE-C-020] 12.5mm X 3.5mm CELL', '', ( #221 ) ) ;
#255 =( GEOMETRIC_REPRESENTATION_CONTEXT ( 3 ) GLOBAL_UNCERTAINTY_ASSIGNED_CONTEXT ( ( #262 ) ) GLOBAL_UNIT_ASSIGNED_CONTEXT ( ( #304, #219, #152 ) ) REPRESENTATION_CONTEXT ( 'NONE', 'WORKASPACE' ) );
#256 = STYLED_ITEM ( 'NONE', ( #99 ), #385 ) ;
#257 = DIRECTION ( 'NONE',  ( 0.000000000000000000, 1.000000000000000000, 0.000000000000000000 ) ) ;
#258 = LINE ( 'NONE', #269, #98 ) ;
#259 = AXIS2_PLACEMENT_3D ( 'NONE', #183, #300, #27 ) ;
#260 = DIRECTION ( 'NONE',  ( -0.000000000000000000, -1.000000000000000000, -0.000000000000000000 ) ) ;
#261 = ORIENTED_EDGE ( 'NONE', *, *, #162, .T. ) ;
#262 = UNCERTAINTY_MEASURE_WITH_UNIT (LENGTH_MEASURE( 1.000000000000000082E-05 ), #304, 'distance_accuracy_value', 'NONE');
#263 = DIRECTION ( 'NONE',  ( 0.000000000000000000, 1.000000000000000000, 0.000000000000000000 ) ) ;
#264 = VERTEX_POINT ( 'NONE', #52 ) ;
#265 = EDGE_CURVE ( 'NONE', #264, #295, #392, .T. ) ;
#266 = DIRECTION ( 'NONE',  ( -0.000000000000000000, -1.000000000000000000, -0.000000000000000000 ) ) ;
#267 = FACE_OUTER_BOUND ( 'NONE', #103, .T. ) ;
#268 = DIRECTION ( 'NONE',  ( 0.000000000000000000, 0.000000000000000000, 1.000000000000000000 ) ) ;
#269 = CARTESIAN_POINT ( 'NONE',  ( 0.000000000000000000, 0.000000000000000000, 5.080000000000000071 ) ) ;
#270 = FILL_AREA_STYLE ('',( #278 ) ) ;
#271 = CARTESIAN_POINT ( 'NONE',  ( 0.000000000000000000, 0.2499999999999980571, 5.080000000000000071 ) ) ;
#272 = DIRECTION ( 'NONE',  ( -0.000000000000000000, -1.000000000000000000, -0.000000000000000000 ) ) ;
#273 = PRODUCT_DEFINITION ( 'UNKNOWN', '', #194, #283 ) ;
#274 = DIRECTION ( 'NONE',  ( -0.000000000000000000, 1.000000000000000000, -0.000000000000000000 ) ) ;
#275 = EDGE_CURVE ( 'NONE', #295, #264, #153, .T. ) ;
#276 = SURFACE_STYLE_FILL_AREA ( #190 ) ;
#277 = AXIS2_PLACEMENT_3D ( 'NONE', #21, #17, #326 ) ;
#278 = FILL_AREA_STYLE_COLOUR ( '', #3 ) ;
#279 = DIRECTION ( 'NONE',  ( 0.000000000000000000, 0.000000000000000000, 1.000000000000000000 ) ) ;
#280 = ORIENTED_EDGE ( 'NONE', *, *, #228, .F. ) ;
#281 = ORIENTED_EDGE ( 'NONE', *, *, #121, .T. ) ;
#282 = AXIS2_PLACEMENT_3D ( 'NONE', #242, #126, #279 ) ;
#283 = PRODUCT_DEFINITION_CONTEXT ( 'detailed design', #365, 'design' ) ;
#284 = LINE ( 'NONE', #118, #205 ) ;
#285 = CARTESIAN_POINT ( 'NONE',  ( 0.000000000000000000, 0.5000000000000000000, 5.985000000000001208 ) ) ;
#286 =( GEOMETRIC_REPRESENTATION_CONTEXT ( 3 ) GLOBAL_UNCERTAINTY_ASSIGNED_CONTEXT ( ( #25 ) ) GLOBAL_UNIT_ASSIGNED_CONTEXT ( ( #213, #157, #91 ) ) REPRESENTATION_CONTEXT ( 'NONE', 'WORKASPACE' ) );
#287 = CARTESIAN_POINT ( 'NONE',  ( 6.221205739668554322E-16, 0.2499999999999980571, -5.080000000000000071 ) ) ;
#288 = VECTOR ( 'NONE', #31, 1000.000000000000000 ) ;
#289 = CARTESIAN_POINT ( 'NONE',  ( 0.000000000000000000, 0.000000000000000000, 0.000000000000000000 ) ) ;
#290 = DIRECTION ( 'NONE',  ( -0.000000000000000000, 1.000000000000000000, -0.000000000000000000 ) ) ;
#291 = VERTEX_POINT ( 'NONE', #345 ) ;
#292 = LINE ( 'NONE', #47, #83 ) ;
#293 = PLANE ( 'NONE',  #170 ) ;
#294 = DIRECTION ( 'NONE',  ( 0.000000000000000000, 0.000000000000000000, 1.000000000000000000 ) ) ;
#295 = VERTEX_POINT ( 'NONE', #78 ) ;
#296 =( NAMED_UNIT ( * ) SI_UNIT ( $, .STERADIAN. ) SOLID_ANGLE_UNIT ( ) );
#297 = DIRECTION ( 'NONE',  ( 0.000000000000000000, 1.000000000000000000, 0.000000000000000000 ) ) ;
#298 = ADVANCED_FACE ( 'NONE', ( #206 ), #86, .T. ) ;
#299 = EDGE_CURVE ( 'NONE', #291, #131, #284, .T. ) ;
#300 = DIRECTION ( 'NONE',  ( 0.000000000000000000, 1.000000000000000000, 0.000000000000000000 ) ) ;
#301 = CYLINDRICAL_SURFACE ( 'NONE', #388, 6.235000000000002096 ) ;
#302 = DIRECTION ( 'NONE',  ( -0.000000000000000000, 1.000000000000000000, -0.000000000000000000 ) ) ;
#303 = AXIS2_PLACEMENT_3D ( 'NONE', #289, #143, #100 ) ;
#304 =( LENGTH_UNIT ( ) NAMED_UNIT ( * ) SI_UNIT ( .MILLI., .METRE. ) );
#305 = CONICAL_SURFACE ( 'NONE', #46, 6.235000000000002096, 0.7853981633974500554 ) ;
#306 = CARTESIAN_POINT ( 'NONE',  ( 7.329511092896911081E-16, 0.5000000000000000000, -5.985000000000001208 ) ) ;
#307 = PRESENTATION_STYLE_ASSIGNMENT (( #6 ) ) ;
#308 = CARTESIAN_POINT ( 'NONE',  ( 0.000000000000000000, 0.000000000000000000, 0.000000000000000000 ) ) ;
#309 = ORIENTED_EDGE ( 'NONE', *, *, #367, .F. ) ;
#310 = CONICAL_SURFACE ( 'NONE', #253, 5.080000000000000071, 0.7853981633974500554 ) ;
#311 = VECTOR ( 'NONE', #236, 1000.000000000000000 ) ;
#312 = ORIENTED_EDGE ( 'NONE', *, *, #137, .F. ) ;
#313 = ADVANCED_FACE ( 'NONE', ( #177 ), #310, .F. ) ;
#314 = EDGE_LOOP ( 'NONE', ( #65, #281, #377, #312 ) ) ;
#315 = EDGE_CURVE ( 'NONE', #295, #131, #292, .T. ) ;
#316 = CARTESIAN_POINT ( 'NONE',  ( 0.000000000000000000, 3.500000000000000000, 0.000000000000000000 ) ) ;
#317 = DIRECTION ( 'NONE',  ( -0.000000000000000000, 1.000000000000000000, -0.000000000000000000 ) ) ;
#318 = LINE ( 'NONE', #287, #71 ) ;
#319 = ORIENTED_EDGE ( 'NONE', *, *, #211, .T. ) ;
#320 = CYLINDRICAL_SURFACE ( 'NONE', #73, 5.080000000000000071 ) ;
#321 = CIRCLE ( 'NONE', #115, 5.330000000000002736 ) ;
#322 = ORIENTED_EDGE ( 'NONE', *, *, #265, .T. ) ;
#323 = AXIS2_PLACEMENT_3D ( 'NONE', #362, #89, #24 ) ;
#324 = DIRECTION ( 'NONE',  ( 0.000000000000000000, 1.000000000000000000, 0.000000000000000000 ) ) ;
#325 = VERTEX_POINT ( 'NONE', #349 ) ;
#326 = DIRECTION ( 'NONE',  ( 0.000000000000000000, 0.000000000000000000, 1.000000000000000000 ) ) ;
#327 = ORIENTED_EDGE ( 'NONE', *, *, #275, .T. ) ;
#328 = COLOUR_RGB ( '',0.6980392156862744724, 0.6980392156862744724, 0.6980392156862744724 ) ;
#329 = CARTESIAN_POINT ( 'NONE',  ( 0.000000000000000000, 3.500000000000000000, 0.000000000000000000 ) ) ;
#330 = LINE ( 'NONE', #58, #45 ) ;
#331 = EDGE_CURVE ( 'NONE', #145, #8, #318, .T. ) ;
#332 = CARTESIAN_POINT ( 'NONE',  ( 0.000000000000000000, 0.5000000000000000000, 0.000000000000000000 ) ) ;
#333 = PLANE ( 'NONE',  #259 ) ;
#334 = CARTESIAN_POINT ( 'NONE',  ( 0.000000000000000000, 0.000000000000000000, 0.000000000000000000 ) ) ;
#335 = DIRECTION ( 'NONE',  ( 0.000000000000000000, 0.000000000000000000, 1.000000000000000000 ) ) ;
#336 = LINE ( 'NONE', #306, #225 ) ;
#337 = ORIENTED_EDGE ( 'NONE', *, *, #42, .T. ) ;
#338 = ORIENTED_EDGE ( 'NONE', *, *, #367, .T. ) ;
#339 = ADVANCED_FACE ( 'NONE', ( #144 ), #384, .F. ) ;
#340 = CIRCLE ( 'NONE', #323, 5.985000000000001208 ) ;
#341 = EDGE_CURVE ( 'NONE', #191, #147, #358, .T. ) ;
#342 = VECTOR ( 'NONE', #249, 1000.000000000000000 ) ;
#343 = AXIS2_PLACEMENT_3D ( 'NONE', #19, #80, #142 ) ;
#344 = ORIENTED_EDGE ( 'NONE', *, *, #341, .T. ) ;
#345 = CARTESIAN_POINT ( 'NONE',  ( 0.000000000000000000, 0.000000000000000000, 5.984999999999998543 ) ) ;
#346 = ORIENTED_EDGE ( 'NONE', *, *, #66, .T. ) ;
#347 = DIRECTION ( 'NONE',  ( 0.000000000000000000, 1.000000000000000000, 0.000000000000000000 ) ) ;
#348 = ORIENTED_EDGE ( 'NONE', *, *, #248, .T. ) ;
#349 = CARTESIAN_POINT ( 'NONE',  ( 0.000000000000000000, 3.500000000000000000, 5.985000000000001208 ) ) ;
#350 = CARTESIAN_POINT ( 'NONE',  ( 0.000000000000000000, 0.2500000000000028311, -6.235000000000002096 ) ) ;
#351 = LINE ( 'NONE', #168, #173 ) ;
#352 = AXIS2_PLACEMENT_3D ( 'NONE', #185, #155, #188 ) ;
#353 = ORIENTED_EDGE ( 'NONE', *, *, #368, .T. ) ;
#354 = DIRECTION ( 'NONE',  ( -0.000000000000000000, 1.000000000000000000, -0.000000000000000000 ) ) ;
#355 = CARTESIAN_POINT ( 'NONE',  ( 7.329511092896911081E-16, 3.500000000000000000, -5.985000000000001208 ) ) ;
#356 = CARTESIAN_POINT ( 'NONE',  ( 0.000000000000000000, 0.5000000000000000000, 5.985000000000001208 ) ) ;
#357 = FACE_OUTER_BOUND ( 'NONE', #222, .T. ) ;
#358 = CIRCLE ( 'NONE', #125, 5.080000000000000071 ) ;
#359 = AXIS2_PLACEMENT_3D ( 'NONE', #111, #324, #294 ) ;
#360 = DIRECTION ( 'NONE',  ( 0.000000000000000000, 0.000000000000000000, 1.000000000000000000 ) ) ;
#361 = DIRECTION ( 'NONE',  ( 0.000000000000000000, 0.000000000000000000, 1.000000000000000000 ) ) ;
#362 = CARTESIAN_POINT ( 'NONE',  ( 0.000000000000000000, 3.500000000000000000, 0.000000000000000000 ) ) ;
#363 = SHAPE_DEFINITION_REPRESENTATION ( #226, #56 ) ;
#364 = EDGE_LOOP ( 'NONE', ( #101, #380, #207, #261 ) ) ;
#365 = APPLICATION_CONTEXT ( 'automotive_design' ) ;
#366 = EDGE_LOOP ( 'NONE', ( #164, #338, #53, #7 ) ) ;
#367 = EDGE_CURVE ( 'NONE', #102, #38, #60, .T. ) ;
#368 = EDGE_CURVE ( 'NONE', #18, #2, #171, .T. ) ;
#369 = CIRCLE ( 'NONE', #124, 5.080000000000000071 ) ;
#370 = ORIENTED_EDGE ( 'NONE', *, *, #94, .T. ) ;
#371 = AXIS2_PLACEMENT_3D ( 'NONE', #316, #347, #268 ) ;
#372 = ADVANCED_FACE ( 'NONE', ( #215 ), #301, .T. ) ;
#373 = PRESENTATION_LAYER_ASSIGNMENT (  '', '', ( #160 ) ) ;
#374 = FACE_OUTER_BOUND ( 'NONE', #364, .T. ) ;
#375 = CARTESIAN_POINT ( 'NONE',  ( 0.000000000000000000, 0.5000000000000000000, 0.000000000000000000 ) ) ;
#376 = CARTESIAN_POINT ( 'NONE',  ( 0.000000000000000000, 0.2500000000000028311, 0.000000000000000000 ) ) ;
#377 = ORIENTED_EDGE ( 'NONE', *, *, #163, .T. ) ;
#378 = EDGE_CURVE ( 'NONE', #147, #191, #167, .T. ) ;
#379 = DIRECTION ( 'NONE',  ( 0.000000000000000000, 0.000000000000000000, 1.000000000000000000 ) ) ;
#380 = ORIENTED_EDGE ( 'NONE', *, *, #378, .F. ) ;
#381 = DIRECTION ( 'NONE',  ( 8.659560562354950115E-17, 0.7071067811865463515, -0.7071067811865487940 ) ) ;
#382 = ORIENTED_EDGE ( 'NONE', *, *, #93, .T. ) ;
#383 = ADVANCED_FACE ( 'NONE', ( #62 ), #223, .T. ) ;
#384 = CYLINDRICAL_SURFACE ( 'NONE', #12, 5.985000000000001208 ) ;
#385 = MANIFOLD_SOLID_BREP ( 'Chamfer1', #37 ) ;
#386 = EDGE_LOOP ( 'NONE', ( #309, #159, #180, #117 ) ) ;
#387 = CARTESIAN_POINT ( 'NONE',  ( 0.000000000000000000, 0.2499999999999980571, 0.000000000000000000 ) ) ;
#388 = AXIS2_PLACEMENT_3D ( 'NONE', #329, #272, #28 ) ;
#389 = CARTESIAN_POINT ( 'NONE',  ( 0.000000000000000000, 0.2500000000000028311, 0.000000000000000000 ) ) ;
#390 = FACE_OUTER_BOUND ( 'NONE', #114, .T. ) ;
#391 = AXIS2_PLACEMENT_3D ( 'NONE', #250, #63, #361 ) ;
#392 = CIRCLE ( 'NONE', #105, 6.235000000000002096 ) ;
#393 = SURFACE_STYLE_FILL_AREA ( #270 ) ;
#394 = CARTESIAN_POINT ( 'NONE',  ( 0.000000000000000000, 0.2499999999999980571, 0.000000000000000000 ) ) ;
ENDSEC;
END-ISO-10303-21;